  0
SECTION
  2
HEADER
  9
$ACADVER
  1
AC1015
  9
$ACADMAINTVER
 70
    20
  9
$DWGCODEPAGE
  3
ANSI_1252
  9
$INSBASE
 10
0.0
 20
0.0
 30
0.0
  9
$EXTMIN
 10
-472.0385486618173
 20
516.4074105019276
 30
0.0
  9
$EXTMAX
 10
1247.134648396452
 20
871.4074105019276
 30
0.0
  9
$LIMMIN
 10
0.0
 20
0.0
  9
$LIMMAX
 10
420.0
 20
297.0
  9
$ORTHOMODE
 70
     1
  9
$REGENMODE
 70
     1
  9
$FILLMODE
 70
     1
  9
$QTEXTMODE
 70
     0
  9
$MIRRTEXT
 70
     1
  9
$LTSCALE
 40
1.0
  9
$ATTMODE
 70
     1
  9
$TEXTSIZE
 40
2.5
  9
$TRACEWID
 40
1.0
  9
$TEXTSTYLE
  7
SANINDUSA
  9
$CLAYER
  8
0
  9
$CELTYPE
  6
ByLayer
  9
$CECOLOR
 62
   256
  9
$CELTSCALE
 40
1.0
  9
$DISPSILH
 70
     0
  9
$DIMSCALE
 40
1.0
  9
$DIMASZ
 40
2.0
  9
$DIMEXO
 40
1.0
  9
$DIMDLI
 40
1.0
  9
$DIMRND
 40
0.0
  9
$DIMDLE
 40
0.0
  9
$DIMEXE
 40
1.0
  9
$DIMTP
 40
0.0
  9
$DIMTM
 40
0.0
  9
$DIMTXT
 40
2.0
  9
$DIMCEN
 40
0.0
  9
$DIMTSZ
 40
0.0
  9
$DIMTOL
 70
     0
  9
$DIMLIM
 70
     0
  9
$DIMTIH
 70
     0
  9
$DIMTOH
 70
     0
  9
$DIMSE1
 70
     0
  9
$DIMSE2
 70
     0
  9
$DIMTAD
 70
     1
  9
$DIMZIN
 70
     8
  9
$DIMBLK
  1

  9
$DIMASO
 70
     1
  9
$DIMSHO
 70
     1
  9
$DIMPOST
  1

  9
$DIMAPOST
  1

  9
$DIMALT
 70
     0
  9
$DIMALTD
 70
     3
  9
$DIMALTF
 40
0.03937007874016
  9
$DIMLFAC
 40
1.0
  9
$DIMTOFL
 70
     1
  9
$DIMTVP
 40
0.0
  9
$DIMTIX
 70
     0
  9
$DIMSOXD
 70
     0
  9
$DIMSAH
 70
     0
  9
$DIMBLK1
  1

  9
$DIMBLK2
  1

  9
$DIMSTYLE
  2
SANINDUSA
  9
$DIMCLRD
 70
   256
  9
$DIMCLRE
 70
   256
  9
$DIMCLRT
 70
   256
  9
$DIMTFAC
 40
1.0
  9
$DIMGAP
 40
1.0
  9
$DIMJUST
 70
     0
  9
$DIMSD1
 70
     0
  9
$DIMSD2
 70
     0
  9
$DIMTOLJ
 70
     0
  9
$DIMTZIN
 70
     8
  9
$DIMALTZ
 70
     0
  9
$DIMALTTZ
 70
     0
  9
$DIMUPT
 70
     0
  9
$DIMDEC
 70
     1
  9
$DIMTDEC
 70
     1
  9
$DIMALTU
 70
     2
  9
$DIMALTTD
 70
     3
  9
$DIMTXSTY
  7
SANINDUSA
  9
$DIMAUNIT
 70
     0
  9
$DIMADEC
 70
     1
  9
$DIMALTRND
 40
0.0
  9
$DIMAZIN
 70
     0
  9
$DIMDSEP
 70
    44
  9
$DIMATFIT
 70
     3
  9
$DIMFRAC
 70
     0
  9
$DIMLDRBLK
  1

  9
$DIMLUNIT
 70
     2
  9
$DIMLWD
 70
    -1
  9
$DIMLWE
 70
    -1
  9
$DIMTMOVE
 70
     0
  9
$LUNITS
 70
     2
  9
$LUPREC
 70
     4
  9
$SKETCHINC
 40
1.0
  9
$FILLETRAD
 40
3.0
  9
$AUNITS
 70
     0
  9
$AUPREC
 70
     0
  9
$MENU
  1
.
  9
$ELEVATION
 40
0.0
  9
$PELEVATION
 40
0.0
  9
$THICKNESS
 40
0.0
  9
$LIMCHECK
 70
     0
  9
$CHAMFERA
 40
10.0
  9
$CHAMFERB
 40
10.0
  9
$CHAMFERC
 40
20.0
  9
$CHAMFERD
 40
0.0
  9
$SKPOLY
 70
     0
  9
$TDCREATE
 40
2453552.386594502
  9
$TDUCREATE
 40
2453552.344927836
  9
$TDUPDATE
 40
2453977.642293831
  9
$TDUUPDATE
 40
2453977.600627164
  9
$TDINDWG
 40
0.0031510301
  9
$TDUSRTIMER
 40
0.0031508565
  9
$USRTIMER
 70
     1
  9
$ANGBASE
 50
0.0
  9
$ANGDIR
 70
     0
  9
$PDMODE
 70
     0
  9
$PDSIZE
 40
0.0
  9
$PLINEWID
 40
0.0
  9
$SPLFRAME
 70
     0
  9
$SPLINETYPE
 70
     6
  9
$SPLINESEGS
 70
     8
  9
$HANDSEED
  5
FE1
  9
$SURFTAB1
 70
     6
  9
$SURFTAB2
 70
     6
  9
$SURFTYPE
 70
     6
  9
$SURFU
 70
     6
  9
$SURFV
 70
     6
  9
$UCSBASE
  2

  9
$UCSNAME
  2

  9
$UCSORG
 10
0.0
 20
0.0
 30
0.0
  9
$UCSXDIR
 10
1.0
 20
0.0
 30
0.0
  9
$UCSYDIR
 10
0.0
 20
1.0
 30
0.0
  9
$UCSORTHOREF
  2

  9
$UCSORTHOVIEW
 70
     0
  9
$UCSORGTOP
 10
0.0
 20
0.0
 30
0.0
  9
$UCSORGBOTTOM
 10
0.0
 20
0.0
 30
0.0
  9
$UCSORGLEFT
 10
0.0
 20
0.0
 30
0.0
  9
$UCSORGRIGHT
 10
0.0
 20
0.0
 30
0.0
  9
$UCSORGFRONT
 10
0.0
 20
0.0
 30
0.0
  9
$UCSORGBACK
 10
0.0
 20
0.0
 30
0.0
  9
$PUCSBASE
  2

  9
$PUCSNAME
  2

  9
$PUCSORG
 10
0.0
 20
0.0
 30
0.0
  9
$PUCSXDIR
 10
1.0
 20
0.0
 30
0.0
  9
$PUCSYDIR
 10
0.0
 20
1.0
 30
0.0
  9
$PUCSORTHOREF
  2

  9
$PUCSORTHOVIEW
 70
     0
  9
$PUCSORGTOP
 10
0.0
 20
0.0
 30
0.0
  9
$PUCSORGBOTTOM
 10
0.0
 20
0.0
 30
0.0
  9
$PUCSORGLEFT
 10
0.0
 20
0.0
 30
0.0
  9
$PUCSORGRIGHT
 10
0.0
 20
0.0
 30
0.0
  9
$PUCSORGFRONT
 10
0.0
 20
0.0
 30
0.0
  9
$PUCSORGBACK
 10
0.0
 20
0.0
 30
0.0
  9
$USERI1
 70
     0
  9
$USERI2
 70
     0
  9
$USERI3
 70
     0
  9
$USERI4
 70
     0
  9
$USERI5
 70
     0
  9
$USERR1
 40
0.0
  9
$USERR2
 40
0.0
  9
$USERR3
 40
0.0
  9
$USERR4
 40
0.0
  9
$USERR5
 40
0.0
  9
$WORLDVIEW
 70
     1
  9
$SHADEDGE
 70
     3
  9
$SHADEDIF
 70
    70
  9
$TILEMODE
 70
     1
  9
$MAXACTVP
 70
    64
  9
$PINSBASE
 10
0.0
 20
0.0
 30
0.0
  9
$PLIMCHECK
 70
     0
  9
$PEXTMIN
 10
1.000000000000000E+20
 20
1.000000000000000E+20
 30
1.000000000000000E+20
  9
$PEXTMAX
 10
-1.000000000000000E+20
 20
-1.000000000000000E+20
 30
-1.000000000000000E+20
  9
$PLIMMIN
 10
0.0
 20
0.0
  9
$PLIMMAX
 10
420.0
 20
297.0
  9
$UNITMODE
 70
     0
  9
$VISRETAIN
 70
     1
  9
$PLINEGEN
 70
     0
  9
$PSLTSCALE
 70
     1
  9
$TREEDEPTH
 70
  3020
  9
$CMLSTYLE
  2
Standard
  9
$CMLJUST
 70
     0
  9
$CMLSCALE
 40
20.0
  9
$PROXYGRAPHICS
 70
     1
  9
$MEASUREMENT
 70
     1
  9
$CELWEIGHT
370
    -1
  9
$ENDCAPS
280
     0
  9
$JOINSTYLE
280
     0
  9
$LWDISPLAY
290
     0
  9
$INSUNITS
 70
     6
  9
$HYPERLINKBASE
  1

  9
$STYLESHEET
  1
monochrome.ctb
  9
$XEDIT
290
     1
  9
$CEPSNTYPE
380
     0
  9
$PSTYLEMODE
290
     1
  9
$FINGERPRINTGUID
  2
{248C91AD-A40A-485E-B319-37B957331010}
  9
$VERSIONGUID
  2
{719AD217-0DE0-4819-9D2D-99418F39F97F}
  9
$EXTNAMES
290
     1
  9
$PSVPSCALE
 40
0.0
  9
$OLESTARTUP
290
     0
  0
ENDSEC
  0
SECTION
  2
CLASSES
  0
CLASS
  1
ACDBDICTIONARYWDFLT
  2
AcDbDictionaryWithDefault
  3
ObjectDBX Classes
 90
        0
280
     0
281
     0
  0
CLASS
  1
ACDBPLACEHOLDER
  2
AcDbPlaceHolder
  3
ObjectDBX Classes
 90
        0
280
     0
281
     0
  0
CLASS
  1
LAYOUT
  2
AcDbLayout
  3
ObjectDBX Classes
 90
        0
280
     0
281
     0
  0
CLASS
  1
DICTIONARYVAR
  2
AcDbDictionaryVar
  3
ObjectDBX Classes
 90
        0
280
     0
281
     0
  0
CLASS
  1
DIMASSOC
  2
AcDbDimAssoc
  3
"AcDbDimAssoc|Product Desc:     AcDim ARX App For Dimension|Company:          Autodesk, Inc.|WEB Address:      www.autodesk.com"
 90
    32768
280
     0
281
     0
  0
CLASS
  1
TABLESTYLE
  2
AcDbTableStyle
  3
ObjectDBX Classes
 90
     2047
280
     0
281
     0
  0
CLASS
  1
SORTENTSTABLE
  2
AcDbSortentsTable
  3
ObjectDBX Classes
 90
    32768
280
     0
281
     0
  0
ENDSEC
  0
SECTION
  2
TABLES
  0
TABLE
  2
VPORT
  5
8
330
0
100
AcDbSymbolTable
 70
     2
  0
VPORT
  5
FD9
330
8
100
AcDbSymbolTableRecord
100
AcDbViewportTableRecord
  2
*Active
 70
     0
 10
0.0
 20
0.0
 11
1.0
 21
1.0
 12
391.9059352096732
 22
693.8908626314193
 13
0.0
 23
0.0
 14
10.0
 24
10.0
 15
10.0
 25
10.0
 16
0.0
 26
0.0
 36
1.0
 17
0.0
 27
0.0
 37
0.0
 40
1088.213712510749
 41
1.593939393939393
 42
50.0
 43
0.0
 44
0.0
 50
0.0
 51
0.0
 71
     0
 72
   100
 73
     1
 74
     2
 75
     0
 76
     0
 77
     0
 78
     0
281
     0
 65
     1
110
0.0
120
0.0
130
0.0
111
1.0
121
0.0
131
0.0
112
0.0
122
1.0
132
0.0
 79
     0
146
0.0
  0
ENDTAB
  0
TABLE
  2
LTYPE
  5
5
330
0
100
AcDbSymbolTable
 70
     3
  0
LTYPE
  5
14
330
5
100
AcDbSymbolTableRecord
100
AcDbLinetypeTableRecord
  2
ByBlock
 70
     0
  3

 72
    65
 73
     0
 40
0.0
  0
LTYPE
  5
15
330
5
100
AcDbSymbolTableRecord
100
AcDbLinetypeTableRecord
  2
ByLayer
 70
     0
  3

 72
    65
 73
     0
 40
0.0
  0
LTYPE
  5
16
330
5
100
AcDbSymbolTableRecord
100
AcDbLinetypeTableRecord
  2
Continuous
 70
     0
  3
Solid line
 72
    65
 73
     0
 40
0.0
  0
LTYPE
  5
2D
330
5
100
AcDbSymbolTableRecord
100
AcDbLinetypeTableRecord
  2
DASHDOT
 70
     0
  3
Dash dot __ . __ . __ . __ . __ . __ . __ . __
 72
    65
 73
     4
 40
25.4
 49
12.7
 74
     0
 49
-6.349999999999999
 74
     0
 49
0.0
 74
     0
 49
-6.349999999999999
 74
     0
  0
LTYPE
  5
2E
330
5
100
AcDbSymbolTableRecord
100
AcDbLinetypeTableRecord
  2
HIDDEN
 70
     0
  3
Hidden __ __ __ __ __ __ __ __ __ __ __ __ __ _
 72
    65
 73
     2
 40
9.524999999999998
 49
6.349999999999999
 74
     0
 49
-3.174999999999999
 74
     0
  0
ENDTAB
  0
TABLE
  2
LAYER
  5
2
330
0
100
AcDbSymbolTable
 70
    16
  0
LAYER
  5
10
330
2
100
AcDbSymbolTableRecord
100
AcDbLayerTableRecord
  2
0
 70
     0
 62
     7
  6
Continuous
370
    -3
390
F
  0
LAYER
  5
2F
330
2
100
AcDbSymbolTableRecord
100
AcDbLayerTableRecord
  2
1
 70
     0
 62
     1
  6
Continuous
370
    -3
390
F
  0
LAYER
  5
30
330
2
100
AcDbSymbolTableRecord
100
AcDbLayerTableRecord
  2
2
 70
     0
 62
     2
  6
Continuous
370
    -3
390
F
  0
LAYER
  5
31
330
2
100
AcDbSymbolTableRecord
100
AcDbLayerTableRecord
  2
3
 70
     0
 62
     3
  6
Continuous
370
    -3
390
F
  0
LAYER
  5
32
330
2
100
AcDbSymbolTableRecord
100
AcDbLayerTableRecord
  2
4
 70
     0
 62
     4
  6
Continuous
370
    -3
390
F
  0
LAYER
  5
33
330
2
100
AcDbSymbolTableRecord
100
AcDbLayerTableRecord
  2
5
 70
     0
 62
     5
  6
Continuous
370
    -3
390
F
  0
LAYER
  5
34
330
2
100
AcDbSymbolTableRecord
100
AcDbLayerTableRecord
  2
6
 70
     0
 62
     6
  6
Continuous
370
    -3
390
F
  0
LAYER
  5
35
330
2
100
AcDbSymbolTableRecord
100
AcDbLayerTableRecord
  2
7
 70
     0
 62
     7
  6
Continuous
370
    -3
390
F
  0
LAYER
  5
36
330
2
100
AcDbSymbolTableRecord
100
AcDbLayerTableRecord
  2
cen
 70
     0
 62
     7
  6
DASHDOT
370
    -3
390
F
  0
LAYER
  5
37
330
2
100
AcDbSymbolTableRecord
100
AcDbLayerTableRecord
  2
hid
 70
     0
 62
     7
  6
HIDDEN
370
    -3
390
F
  0
LAYER
  5
5D6
330
2
100
AcDbSymbolTableRecord
100
AcDbLayerTableRecord
  2
hatch
 70
     0
 62
     9
  6
Continuous
370
    -3
390
F
  0
LAYER
  5
8AF
330
2
100
AcDbSymbolTableRecord
100
AcDbLayerTableRecord
  2
9
 70
     0
 62
     9
  6
Continuous
370
    -3
390
F
  0
LAYER
  5
8F8
330
2
100
AcDbSymbolTableRecord
100
AcDbLayerTableRecord
  2
leg fin
 70
     0
 62
     9
  6
Continuous
370
    -3
390
F
  0
LAYER
  5
91D
330
2
100
AcDbSymbolTableRecord
100
AcDbLayerTableRecord
  2
cotas
 70
     0
 62
     1
  6
Continuous
370
    -3
390
F
  0
LAYER
  5
92F
330
2
100
AcDbSymbolTableRecord
100
AcDbLayerTableRecord
  2
Defpoints
 70
     0
 62
     7
  6
Continuous
290
     0
370
    -3
390
F
  0
LAYER
  5
BA5
330
2
100
AcDbSymbolTableRecord
100
AcDbLayerTableRecord
  2
SANINDUSA
 70
     0
 62
     3
  6
Continuous
370
    -3
390
F
  0
ENDTAB
  0
TABLE
  2
STYLE
  5
3
330
0
100
AcDbSymbolTable
 70
     3
  0
STYLE
  5
11
330
3
100
AcDbSymbolTableRecord
100
AcDbTextStyleTableRecord
  2
Standard
 70
     0
 40
0.0
 41
1.0
 50
0.0
 71
     0
 42
2.5
  3
Avgardn.ttf
  4

1001
ACAD
1000
AvantGarde Bk BT
1071
       34
  0
STYLE
  5
2C
330
3
100
AcDbSymbolTableRecord
100
AcDbTextStyleTableRecord
  2

 70
     1
 40
0.0
 41
1.0
 50
0.0
 71
     0
 42
2.5
  3
ltypeshp.shx
  4

  0
STYLE
  5
91F
330
3
100
AcDbSymbolTableRecord
100
AcDbTextStyleTableRecord
  2
SANINDUSA
 70
     0
 40
0.0
 41
1.0
 50
0.0
 71
     0
 42
2.5
  3
verdana.TTF
  4

1001
ACAD
1000
Verdana
1071
       34
  0
ENDTAB
  0
TABLE
  2
VIEW
  5
6
330
0
100
AcDbSymbolTable
 70
     0
  0
ENDTAB
  0
TABLE
  2
UCS
  5
7
330
0
100
AcDbSymbolTable
 70
     0
  0
ENDTAB
  0
TABLE
  2
APPID
  5
9
330
0
100
AcDbSymbolTable
 70
     6
  0
APPID
  5
12
330
9
100
AcDbSymbolTableRecord
100
AcDbRegAppTableRecord
  2
ACAD
 70
     0
  0
APPID
  5
3A
330
9
100
AcDbSymbolTableRecord
100
AcDbRegAppTableRecord
  2
DCO15
 70
     0
  0
APPID
  5
C55
330
9
100
AcDbSymbolTableRecord
100
AcDbRegAppTableRecord
  2
ACAD_DSTYLE_DIMEXT_LENGTH
 70
     0
  0
APPID
  5
C56
330
9
100
AcDbSymbolTableRecord
100
AcDbRegAppTableRecord
  2
ACAD_DSTYLE_DIMEXT_ENABLED
 70
     0
  0
APPID
  5
C57
330
9
100
AcDbSymbolTableRecord
100
AcDbRegAppTableRecord
  2
ACAD_DSTYLE_DIMJOGGED_JOGANGLE_SYMBOL
 70
     0
  0
APPID
  5
C58
330
9
100
AcDbSymbolTableRecord
100
AcDbRegAppTableRecord
  2
ACAD_DSTYLE_DIMARC_LENGTH_SYMBOL
 70
     0
  0
ENDTAB
  0
TABLE
  2
DIMSTYLE
  5
A
330
0
100
AcDbSymbolTable
 70
     2
100
AcDbDimStyleTable
 71
     1
340
921
  0
DIMSTYLE
105
45
330
A
100
AcDbSymbolTableRecord
100
AcDbDimStyleTableRecord
  2
STANDARD
 70
     0
289
     0
340
11
  0
DIMSTYLE
105
921
330
A
100
AcDbSymbolTableRecord
100
AcDbDimStyleTableRecord
  2
SANINDUSA
 70
     0
 41
2.0
 42
1.0
 43
1.0
 44
1.0
 73
     0
 74
     0
 77
     1
 78
     8
140
2.0
141
0.0
143
0.03937007874016
147
1.0
171
     3
172
     1
176
   256
177
   256
178
   256
179
     1
271
     1
272
     1
274
     3
278
    44
283
     0
284
     8
340
91F
371
    -1
372
    -1
  0
ENDTAB
  0
TABLE
  2
BLOCK_RECORD
  5
1
330
0
100
AcDbSymbolTable
 70
    34
  0
BLOCK_RECORD
  5
1F
330
1
100
AcDbSymbolTableRecord
100
AcDbBlockTableRecord
  2
*Model_Space
340
22
  0
BLOCK_RECORD
  5
1B
330
1
100
AcDbSymbolTableRecord
100
AcDbBlockTableRecord
  2
*Paper_Space
340
1E
  0
BLOCK_RECORD
  5
23
330
1
100
AcDbSymbolTableRecord
100
AcDbBlockTableRecord
  2
*Paper_Space0
340
26
  0
BLOCK_RECORD
  5
919
330
1
100
AcDbSymbolTableRecord
100
AcDbBlockTableRecord
  2
_DotSmall
340
0
  0
BLOCK_RECORD
  5
922
330
1
100
AcDbSymbolTableRecord
100
AcDbBlockTableRecord
  2
base para cotas
340
0
310
2800000020000000200000000100080000000000000400000000000000000000000000000000000000000000000080000080000000808000800000008000800080800000C0C0C000C0DCC000F0CAA6000020400000206000002080000020A0000020C0000020E00000400000004020000040400000406000004080000040A0
310
000040C0000040E00000600000006020000060400000606000006080000060A0000060C0000060E00000800000008020000080400000806000008080000080A0000080C0000080E00000A0000000A0200000A0400000A0600000A0800000A0A00000A0C00000A0E00000C0000000C0200000C0400000C0600000C0800000C0
310
A00000C0C00000C0E00000E0000000E0200000E0400000E0600000E0800000E0A00000E0C00000E0E00040000000400020004000400040006000400080004000A0004000C0004000E00040200000402020004020400040206000402080004020A0004020C0004020E000404000004040200040404000404060004040800040
310
40A0004040C0004040E00040600000406020004060400040606000406080004060A0004060C0004060E00040800000408020004080400040806000408080004080A0004080C0004080E00040A0000040A0200040A0400040A0600040A0800040A0A00040A0C00040A0E00040C0000040C0200040C0400040C0600040C08000
310
40C0A00040C0C00040C0E00040E0000040E0200040E0400040E0600040E0800040E0A00040E0C00040E0E00080000000800020008000400080006000800080008000A0008000C0008000E00080200000802020008020400080206000802080008020A0008020C0008020E00080400000804020008040400080406000804080
310
008040A0008040C0008040E00080600000806020008060400080606000806080008060A0008060C0008060E00080800000808020008080400080806000808080008080A0008080C0008080E00080A0000080A0200080A0400080A0600080A0800080A0A00080A0C00080A0E00080C0000080C0200080C0400080C0600080C0
310
800080C0A00080C0C00080C0E00080E0000080E0200080E0400080E0600080E0800080E0A00080E0C00080E0E000C0000000C0002000C0004000C0006000C0008000C000A000C000C000C000E000C0200000C0202000C0204000C0206000C0208000C020A000C020C000C020E000C0400000C0402000C0404000C0406000C0
310
408000C040A000C040C000C040E000C0600000C0602000C0604000C0606000C0608000C060A000C060C000C060E000C0800000C0802000C0804000C0806000C0808000C080A000C080C000C080E000C0A00000C0A02000C0A04000C0A06000C0A08000C0A0A000C0A0C000C0A0E000C0C00000C0C02000C0C04000C0C06000
310
C0C08000C0C0A000F0FBFF00A4A0A000808080000000FF0000FF000000FFFF00FF000000FF00FF00FFFF0000FFFFFF00A4A4A4A4A4A4A4A4A4A4A4A4A4A4A4A4A4A4A4A4A4A4A4A4A4A4A4A4A4A4A4A4A4A4A4A4A4A4A4A4A4A4A4A4A4A4A4A4A4A4A4A4A4A4A4A4A4A4A4A4A4A4A4A4A4A4A4A4A4A4A4A4A4A4A4A4A4A4A4
310
A4A4A4A4A4A4A4A4A4A4A4A4A4A4A4A4A4A4A4A4A4A4A4A4A4A4A4A4A4A4A4A4A4A4A4A4A4A4A4A4A4A4A4A4A4A4A4A4A4A4A4A4A4A4A4A4A4A4A4A4A4A4A4A4A4A4A4A4A4A4A4A4A4A4A4A4A4A4A4A4A4A4A4A4A4A4A4A4A4A4A4A4A4A4A4A4A4A4A4A4A4A4A4A4A4A4A4A4A4A4A4A4A4A4A4A4A4A4A4A4A4A4A4A4A4A4A4
310
A4A4A4A4A4A4A4A4A4A4A4A4A4A4A4A4A4A4A4A4A4A4A4A4A4A4A4A4A4A4A4A4A4A4A4A4A4A4A4A4A4A4A4A4A4A4A4A4A4A4A4A4A4A4A4A4A4A4A4A4A4A4A4A4A4A4A4A4A4A4A4A4A4A4A4A4A4A4A4A4A4A4A4A4A4A4A4A4A4A4A4A4A4A4A4A4A4A4A4A4A4A4A4A4A4A4A4A4A4A4A4A4A4A4A4A4A4A4A4A4A4A4A4A4A4A4A4
310
A4A4A4A4A4A4A4A4A4A4A4A4A4A4A4A4A4A4A4A4A4A4A4A4A4A4A4A4A4A4A4A4A4A4A4A4A4A4A4A4A4A4A4A4A4A4A4A4A4A4A4A4A4A4A4A4A4A4A4A4A4A4A4A4A4A4A4A4A4A4A4A4A4A4A4A4A4A4A4A4A4A4A4A4A4A4A4A4A4A4A4A4A4A4A4A4A4A4A4A4A4A4A4A4A4A4A4A4A4A4A4A4A4A4A4A4F9F9F9F9F9F9F9F9F9F9F9
310
F9F9F9F9F9F9F9F9F9F9F9F9F9F9F9F9F9F9F9A4A4F9F9F9F9F9F9F9F9F9F9F9F9F9F9F9F9F9F9F9F9F9F9F9F9F9F9F9F9F9F9A4A4F9F9F9F9F9F9F9F9F9F9F9F9F9F9F9F9F9F9F9F9F9F9F9F9F9F9F9F9F9F9A4A4F9A4A4A4A4A4A4A4A4A4A4A4A4A4A4A4A4A4A4A4A4A4A4A4A4A4A4A4A4F9A4A4A4A4A4A4A4A4A4A4A4A4
310
A4A4A4A4A4A4A4A4A4A4A4A4A4A4A4A4A4A4A4A4A4A4A4A4A4A4A4A4A4A4A4A4A4A4A4A4A4A4A4A4A4A4A4A4A4A4A4A4A4A4A4A4A4A4A4A4A4A4A4A4A4A4A4A4A4A4A4A4A4A4A4A4A4A4A4A4A4A4A4A4A4A4A4A4A4A4A4A4A4A4A4A4A4A4A4A4A4A4A4A4A4A4A4A4A4A4A4A4A4A4A4A4A4A4A4A4A4A4A4A4A4A4A4A4A4A4A4
310
A4A4A4A4A4A4A4A4A4A4A4A4A4A4A4A4A4A4A4A4A4A4A4A4A4A4A4A4A4A4A4A4A4A4A4A4A4A4A4A4A4A4A4A4A4A4A4A4A4A4A4A4A4A4A4A4A4A4A4A4A4A4A4A4A4A4A4A4A4A4A4A4A4A4A4A4A4A4A4A4A4A4A4A4A4A4A4A4A4A4A4A4A4A4A4A4A4A4A4A4A4A4A4A4A4A4A4A4A4A4A4A4A4A4A4A4A4A4A4A4A4A4A4A4A4A4A4
310
A4A4A4A4A4A4A4A4A4A4A4A4A4A4A4A4A4A4A4A4A4A4A4A4A4A4A4A4A4A4A4A4A4A4A4A4A4A4A4A4A4A4A4A4A4A4A4A4A4A4A4A4A4A4A4A4A4A4A4A4A4A4A4A4A4A4A4A4A4A4A4A4A4A4A4A4A4A4A4A4A4A4A4A4A4A4A4A4A4A4A4A4A4A4A4A4A4A4A4A4A4A4A4A4A4A4A4A4A4A4A4A4A4A4A4A4A4A4A4A4A4A4A4A4A4A4A4
310
A4A4A4A4A4A4A4A4A4A4A4A4A4A4A4A4A4A4A4A4A4A4A4A4A4A4A4A4A4A4A4A4A4A4A4A4A4A4A4A4A4A4A4A4A4A4A4A4A4A4A4A4A4A4A4A4
1001
ACAD
1000
DesignCenter Data
1002
{
1070
     1
1070
     4
1002
}
  0
BLOCK_RECORD
  5
AA8
330
1
100
AcDbSymbolTableRecord
100
AcDbBlockTableRecord
  2
_CLOSED
340
0
  0
ENDTAB
  0
ENDSEC
  0
SECTION
  2
BLOCKS
  0
BLOCK
  5
20
330
1F
100
AcDbEntity
  8
0
100
AcDbBlockBegin
  2
*Model_Space
 70
     0
 10
0.0
 20
0.0
 30
0.0
  3
*Model_Space
  1

  0
ENDBLK
  5
21
330
1F
100
AcDbEntity
  8
0
100
AcDbBlockEnd
  0
BLOCK
  5
1C
330
1B
100
AcDbEntity
 67
     1
  8
0
100
AcDbBlockBegin
  2
*Paper_Space
 70
     0
 10
0.0
 20
0.0
 30
0.0
  3
*Paper_Space
  1

  0
ENDBLK
  5
1D
330
1B
100
AcDbEntity
 67
     1
  8
0
100
AcDbBlockEnd
  0
BLOCK
  5
24
330
23
100
AcDbEntity
 67
     1
  8
0
100
AcDbBlockBegin
  2
*Paper_Space0
 70
     0
 10
0.0
 20
0.0
 30
0.0
  3
*Paper_Space0
  1

  0
ENDBLK
  5
25
330
23
100
AcDbEntity
 67
     1
  8
0
100
AcDbBlockEnd
  0
BLOCK
  5
91B
330
919
100
AcDbEntity
  8
0
100
AcDbBlockBegin
  2
_DotSmall
 70
     0
 10
0.0
 20
0.0
 30
0.0
  3
_DotSmall
  1

  0
LWPOLYLINE
  5
91A
330
919
100
AcDbEntity
  8
0
  6
ByBlock
 62
     0
100
AcDbPolyline
 90
        2
 70
     1
 43
0.5
 10
-0.0625
 20
0.0
 42
1.0
 10
0.0625
 20
0.0
 42
1.0
  0
ENDBLK
  5
91C
330
919
100
AcDbEntity
  8
0
100
AcDbBlockEnd
  0
BLOCK
  5
92A
330
922
100
AcDbEntity
  8
0
100
AcDbBlockBegin
  2
base para cotas
 70
     0
 10
0.0
 20
0.0
 30
0.0
  3
base para cotas
  1

  0
LINE
  5
B36
330
922
100
AcDbEntity
  8
cotas
100
AcDbLine
 10
0.0
 20
-30.0
 30
0.0
 11
327.1260136525398
 21
-30.0
 31
0.0
  0
LINE
  5
B37
330
922
100
AcDbEntity
  8
cotas
100
AcDbLine
 10
0.0
 20
-25.0
 30
0.0
 11
327.1260136525398
 21
-25.0
 31
0.0
  0
LINE
  5
B38
330
922
100
AcDbEntity
  8
cotas
100
AcDbLine
 10
0.0
 20
-20.0
 30
0.0
 11
327.1260136525398
 21
-20.0
 31
0.0
  0
LINE
  5
B39
330
922
100
AcDbEntity
  8
cotas
100
AcDbLine
 10
0.0
 20
-15.0
 30
0.0
 11
327.1260136525398
 21
-15.0
 31
0.0
  0
LINE
  5
B3A
330
922
100
AcDbEntity
  8
cotas
100
AcDbLine
 10
0.0
 20
-10.0
 30
0.0
 11
327.1260136525398
 21
-10.0
 31
0.0
  0
LINE
  5
B3B
330
922
100
AcDbEntity
  8
cotas
100
AcDbLine
 10
0.0
 20
0.0
 30
0.0
 11
0.0
 21
-30.0
 31
0.0
  0
LINE
  5
B3C
330
922
100
AcDbEntity
  8
cotas
100
AcDbLine
 10
327.1260136525398
 20
-30.0
 30
0.0
 11
327.1260136525398
 21
0.0
 31
0.0
  0
ENDBLK
  5
92B
330
922
100
AcDbEntity
  8
0
100
AcDbBlockEnd
  0
BLOCK
  5
AAD
330
AA8
100
AcDbEntity
  8
0
100
AcDbBlockBegin
  2
_CLOSED
 70
     0
 10
0.0
 20
0.0
 30
0.0
  3
_CLOSED
  1

  0
LINE
  5
AA9
330
AA8
100
AcDbEntity
  8
0
100
AcDbLine
 10
-1.0
 20
0.166667
 30
0.0
 11
0.0
 21
0.0
 31
0.0
  0
LINE
  5
AAA
330
AA8
100
AcDbEntity
  8
0
100
AcDbLine
 10
0.0
 20
0.0
 30
0.0
 11
-1.0
 21
-0.166667
 31
0.0
  0
LINE
  5
AAB
330
AA8
100
AcDbEntity
  8
0
100
AcDbLine
 10
-1.0
 20
0.166667
 30
0.0
 11
-1.0
 21
-0.166667
 31
0.0
  0
LINE
  5
AAC
330
AA8
100
AcDbEntity
  8
0
100
AcDbLine
 10
0.0
 20
0.0
 30
0.0
 11
-1.0
 21
0.0
 31
0.0
  0
ENDBLK
  5
AAE
330
AA8
100
AcDbEntity
  8
0
100
AcDbBlockEnd
  0
ENDSEC
  0
SECTION
  2
ENTITIES
  0
ARC
  5
D53
330
1F
100
AcDbEntity
  8
SANINDUSA
100
AcDbCircle
 10
790.1138089328351
 20
722.3184111025079
 30
0.0
 40
11.00000000000001
100
AcDbArc
 50
0.0
 51
90.0
  0
ARC
  5
D54
330
1F
100
AcDbEntity
  8
SANINDUSA
100
AcDbCircle
 10
457.1138089328352
 20
722.3184111025079
 30
0.0
 40
11.00000000000003
100
AcDbArc
 50
90.0
 51
180.0
  0
LINE
  5
D55
330
1F
100
AcDbEntity
  8
SANINDUSA
100
AcDbLine
 10
801.1138089328351
 20
721.3184111025078
 30
0.0
 11
801.1138089328351
 21
722.3184111025077
 31
0.0
  0
LINE
  5
D56
330
1F
100
AcDbEntity
  8
SANINDUSA
100
AcDbLine
 10
446.113808932835
 20
722.3184111025077
 30
0.0
 11
446.113808932835
 21
721.3184111025078
 31
0.0
  0
ARC
  5
D57
330
1F
100
AcDbEntity
  8
SANINDUSA
100
AcDbCircle
 10
635.2819444868474
 20
767.8348703164388
 30
0.0
 40
155.0000000000001
100
AcDbArc
 50
281.7975304920667
 51
342.5360188407951
  0
ARC
  5
D58
330
1F
100
AcDbEntity
  8
SANINDUSA
100
AcDbCircle
 10
611.9456733788227
 20
767.8348703164388
 30
0.0
 40
155.0000000000001
100
AcDbArc
 50
197.4639811592023
 51
258.2024695079333
  0
ARC
  5
D59
330
1F
100
AcDbEntity
  8
SANINDUSA
100
AcDbCircle
 10
669.0168316252935
 20
606.3202970118718
 30
0.0
 40
9.999999999999989
100
AcDbArc
 50
101.7975304920667
 51
178.9999999999982
  0
ARC
  5
D5A
330
1F
100
AcDbEntity
  8
SANINDUSA
100
AcDbCircle
 10
578.2107862403766
 20
606.3202970118718
 30
0.0
 40
10.00000000000002
100
AcDbArc
 50
1.000000000001763
 51
78.2024695079333
  0
LINE
  5
D5B
330
1F
100
AcDbEntity
  8
SANINDUSA
100
AcDbLine
 10
588.2092631919407
 20
606.4948210762447
 30
0.0
 11
588.5966585007944
 21
584.3009586960704
 31
0.0
  0
LINE
  5
D5C
330
1F
100
AcDbEntity
  8
SANINDUSA
100
AcDbLine
 10
658.6309593648758
 20
584.3009586960704
 30
0.0
 11
659.0183546737296
 21
606.4948210762447
 31
0.0
  0
ARC
  5
D5D
330
1F
100
AcDbEntity
  8
SANINDUSA
100
AcDbCircle
 10
657.6311116697194
 20
584.3184111025077
 30
0.0
 40
1.000000000000043
100
AcDbArc
 50
270.0
 51
358.9999999999917
  0
ARC
  5
D5E
330
1F
100
AcDbEntity
  8
SANINDUSA
100
AcDbCircle
 10
589.5965061959508
 20
584.3184111025077
 30
0.0
 40
1.000000000000008
100
AcDbArc
 50
181.0000000000082
 51
270.0
  0
LINE
  5
D61
330
1F
100
AcDbEntity
  8
SANINDUSA
100
AcDbLine
 10
623.6138089328351
 20
733.3184111025079
 30
0.0
 11
457.1138089328352
 21
733.3184111025079
 31
0.0
  0
LINE
  5
D62
330
1F
100
AcDbEntity
  8
SANINDUSA
100
AcDbLine
 10
790.1138089328351
 20
733.3184111025079
 30
0.0
 11
623.6138089328351
 21
733.3184111025079
 31
0.0
  0
LINE
  5
D63
330
1F
100
AcDbEntity
  8
SANINDUSA
100
AcDbLine
 10
623.6138089328351
 20
721.3184111025078
 30
0.0
 11
446.113808932835
 21
721.3184111025078
 31
0.0
  0
LINE
  5
D64
330
1F
100
AcDbEntity
  8
SANINDUSA
100
AcDbLine
 10
801.1138089328351
 20
721.3184111025078
 30
0.0
 11
623.6138089328351
 21
721.3184111025078
 31
0.0
  0
LINE
  5
D65
330
1F
100
AcDbEntity
  8
SANINDUSA
100
AcDbLine
 10
580.255324854828
 20
616.1090590303305
 30
0.0
 11
666.9722930108422
 21
616.1090590303305
 31
0.0
  0
LINE
  5
D69
330
1F
100
AcDbEntity
  8
SANINDUSA
100
AcDbLine
 10
623.6138089328351
 20
583.3184111025079
 30
0.0
 11
589.5965061959508
 21
583.3184111025079
 31
0.0
  0
LINE
  5
D6A
330
1F
100
AcDbEntity
  8
SANINDUSA
100
AcDbLine
 10
657.6311116697194
 20
583.3184111025079
 30
0.0
 11
623.6138089328351
 21
583.3184111025079
 31
0.0
  0
CIRCLE
  5
D6E
330
1F
100
AcDbEntity
  8
SANINDUSA
100
AcDbCircle
 10
-294.5385486618174
 20
693.9074105019276
 30
0.0
 40
177.5
  0
CIRCLE
  5
D71
330
1F
100
AcDbEntity
  8
SANINDUSA
100
AcDbCircle
 10
-294.5385486618174
 20
693.9074105019276
 30
0.0
 40
150.1576558536287
  0
CIRCLE
  5
D72
330
1F
100
AcDbEntity
  8
SANINDUSA
100
AcDbCircle
 10
-294.5385486618174
 20
693.9074105019281
 30
0.0
 40
40.10744758730311
  0
LWPOLYLINE
  5
D73
330
1F
100
AcDbEntity
  8
SANINDUSA
100
AcDbPolyline
 90
       21
 70
   128
 43
0.0
 10
-288.7200292825263
 20
819.5773158692132
 10
-289.9914856998928
 20
819.2290441533323
 10
-293.8954411843775
 20
818.7281639176488
 10
-297.8625849254603
 20
818.9863194346681
 10
-301.453552499528
 20
819.9699726957289
 10
-304.2728081821453
 20
821.5668081273367
 10
-306.0034219252674
 20
823.5976276064068
 10
-306.4426666966373
 20
825.8329236010231
 10
-305.5333210413424
 20
828.0178012128716
 10
-303.3771783939934
 20
829.9036224004948
 10
-301.4949338317026
 20
830.8369306716258
 10
-297.903766502554
 20
831.8098722668009
 10
-293.9327590388182
 20
832.0698501354788
 10
-290.0330859067381
 20
831.5886381904535
 10
-286.6402431691455
 20
830.4197751267192
 10
-284.1320976468203
 20
828.6897433133006
 10
-282.7915412319845
 20
826.5862141016679
 10
-282.7750725976435
 20
824.3412636696268
 10
-284.09109553555
 20
822.2087430189915
 10
-286.5926963108492
 20
820.4355259825625
 10
-288.7200292825263
 20
819.5773158692132
  0
ARC
  5
D76
330
1F
100
AcDbEntity
  8
SANINDUSA
100
AcDbCircle
 10
-294.4141683320603
 20
843.6406070863066
 30
0.0
 40
16.6761274509134
100
AcDbArc
 50
237.5114619683859
 51
302.5782856311058
  0
CIRCLE
  5
D7A
330
1F
100
AcDbEntity
  8
SANINDUSA
100
AcDbCircle
 10
-294.5385486618174
 20
693.9074105019281
 30
0.0
 40
23.49999999999998
  0
ARC
  5
D7B
330
1F
100
AcDbEntity
  8
SANINDUSA
100
AcDbCircle
 10
342.0913370751093
 20
722.3184111025081
 30
0.0
 40
10.99999999999994
100
AcDbArc
 50
0.0
 51
90.0
  0
ARC
  5
D7C
330
1F
100
AcDbEntity
  8
SANINDUSA
100
AcDbCircle
 10
9.091337075109322
 20
722.3184111025081
 30
0.0
 40
11.00000000000001
100
AcDbArc
 50
90.0
 51
180.0
  0
LINE
  5
D7D
330
1F
100
AcDbEntity
  8
SANINDUSA
100
AcDbLine
 10
353.0913370751093
 20
721.3184111025079
 30
0.0
 11
353.0913370751093
 21
722.3184111025078
 31
0.0
  0
LINE
  5
D7E
330
1F
100
AcDbEntity
  8
SANINDUSA
100
AcDbLine
 10
-1.908662924890677
 20
722.3184111025078
 30
0.0
 11
-1.908662924890677
 21
721.3184111025079
 31
0.0
  0
ARC
  5
D7F
330
1F
100
AcDbEntity
  8
SANINDUSA
100
AcDbCircle
 10
187.2594726291217
 20
767.8348703164389
 30
0.0
 40
155.0000000000001
100
AcDbArc
 50
281.79753049206
 51
342.5360188407938
  0
ARC
  5
D80
330
1F
100
AcDbEntity
  8
SANINDUSA
100
AcDbCircle
 10
12.07839049376548
 20
720.4853962925725
 30
0.0
 40
4.000000000000056
100
AcDbArc
 50
0.0
 51
12.02003435232486
  0
LINE
  5
D81
330
1F
100
AcDbEntity
  8
SANINDUSA
100
AcDbLine
 10
16.07839049376571
 20
720.4853962925725
 30
0.0
 11
16.07839049376571
 21
677.4902705667287
 31
0.0
  0
ARC
  5
D82
330
1F
100
AcDbEntity
  8
SANINDUSA
100
AcDbCircle
 10
220.9943597675679
 20
606.320297011872
 30
0.0
 40
10.00000000000013
100
AcDbArc
 50
101.79753049206
 51
178.9999999999982
  0
LINE
  5
D83
330
1F
100
AcDbEntity
  8
SANINDUSA
100
AcDbLine
 10
140.5420046306708
 20
586.1446649515531
 30
0.0
 11
140.5741866430687
 21
584.3009586960705
 31
0.0
  0
LINE
  5
D84
330
1F
100
AcDbEntity
  8
SANINDUSA
100
AcDbLine
 10
210.6084875071499
 20
584.3009586960705
 30
0.0
 11
210.9958828160038
 21
606.4948210762448
 31
0.0
  0
ARC
  5
D85
330
1F
100
AcDbEntity
  8
SANINDUSA
100
AcDbCircle
 10
209.6086398119937
 20
584.3184111025078
 30
0.0
 40
1.000000000000043
100
AcDbArc
 50
270.0
 51
358.9999999999917
  0
ARC
  5
D86
330
1F
100
AcDbEntity
  8
SANINDUSA
100
AcDbCircle
 10
141.5740343382249
 20
584.3184111025078
 30
0.0
 40
0.9999999999999431
100
AcDbArc
 50
181.000000000145
 51
270.0
  0
ARC
  5
D87
330
1F
100
AcDbEntity
  8
SANINDUSA
100
AcDbCircle
 10
136.4439438047177
 20
585.9993168702763
 30
0.0
 40
4.096700732780966
100
AcDbArc
 50
2.005842336597323
 51
78.98185089921959
  0
ARC
  5
D88
330
1F
100
AcDbEntity
  8
SANINDUSA
100
AcDbCircle
 10
164.3565467755629
 20
756.0146822107545
 30
0.0
 40
168.1965676677323
100
AcDbArc
 50
208.3931773012183
 51
260.7177994260575
  0
ARC
  5
D89
330
1F
100
AcDbEntity
  8
SANINDUSA
100
AcDbCircle
 10
19.95553124905905
 20
677.5841067779185
 30
0.0
 40
3.878276121021638
100
AcDbArc
 50
181.386426187667
 51
203.2853712074665
  0
LINE
  5
D8B
330
1F
100
AcDbEntity
  8
SANINDUSA
100
AcDbLine
 10
342.0913370751093
 20
733.3184111025079
 30
0.0
 11
9.091337078068136
 21
733.3184111025079
 31
0.0
  0
LINE
  5
D8C
330
1F
100
AcDbEntity
  8
SANINDUSA
100
AcDbLine
 10
353.0913370751093
 20
721.3184111025079
 30
0.0
 11
-1.908662924890677
 21
721.3184111025079
 31
0.0
  0
LINE
  5
D91
330
1F
100
AcDbEntity
  8
SANINDUSA
100
AcDbLine
 10
139.5901583275981
 20
616.1090590303306
 30
0.0
 11
218.9498211531163
 21
616.1090590303306
 31
0.0
  0
ARC
  5
D92
330
1F
100
AcDbEntity
  8
SANINDUSA
100
AcDbCircle
 10
165.2557671013014
 20
769.334604027129
 30
0.0
 40
155.3601979700423
100
AcDbArc
 50
218.2330039002939
 51
260.4911080169205
  0
ARC
  5
D93
330
1F
100
AcDbEntity
  8
SANINDUSA
100
AcDbCircle
 10
45.60987584299573
 20
675.7824396597765
 30
0.0
 40
3.527065117362826
100
AcDbArc
 50
193.2853088075323
 51
227.3504806416743
  0
LWPOLYLINE
  5
D95
330
1F
100
AcDbEntity
  8
SANINDUSA
100
AcDbPolyline
 90
        7
 70
   128
 43
0.0
 10
26.38994773108766
 20
708.476671842474
 10
26.06961727991302
 20
712.6126272569568
 10
25.82824993897066
 20
715.4309520554607
 10
25.53836174295521
 20
718.206674763347
 10
25.36117756536919
 20
719.4474774862834
 10
25.19074646406307
 20
720.2564912719534
 10
25.14484109776436
 20
720.4067238850432
  0
LWPOLYLINE
  5
D96
330
1F
100
AcDbEntity
  8
SANINDUSA
100
AcDbPolyline
 90
        9
 70
   128
 43
0.0
 10
25.3472880235754
 20
721.2847698622763
 10
25.34002052570668
 20
721.1794822445606
 10
25.32754420562037
 20
721.0726028006874
 10
25.30987718378742
 20
720.9642867611968
 10
25.28704511959813
 20
720.854691443125
 10
25.25908117409404
 20
720.7439760215184
 10
25.22602596180491
 20
720.6323012982498
 10
25.18792749176055
 20
720.5198294684708
 10
25.14484109776436
 20
720.4067238850433
  0
ARC
  5
D9B
330
1F
100
AcDbEntity
  8
SANINDUSA
100
AcDbCircle
 10
1176.690624442694
 20
580.9342060737527
 30
0.0
 40
1157.34987251805
100
AcDbArc
 50
173.6730301703677
 51
175.0935020416665
  0
ARC
  5
D9D
330
1F
100
AcDbEntity
  8
SANINDUSA
100
AcDbCircle
 10
152.5500778960827
 20
747.9657707893622
 30
0.0
 40
132.1959431256712
100
AcDbArc
 50
197.3805246775696
 51
210.9785532631285
  0
ARC
  5
DA1
330
1F
100
AcDbEntity
  8
SANINDUSA
100
AcDbCircle
 10
138.0901928352318
 20
606.8847438745214
 30
0.0
 40
9.345474122375561
100
AcDbArc
 50
357.6087443610334
 51
80.76397586320862
  0
LWPOLYLINE
  5
DA4
330
1F
100
AcDbEntity
  8
SANINDUSA
100
AcDbPolyline
 90
        8
 70
   128
 43
0.0
 10
41.19868569191453
 20
676.5754561510097
 10
41.54856298289224
 20
676.680340898075
 10
41.60237290801251
 20
676.7598151579599
 10
41.57887489600125
 20
677.1302140105343
 10
41.50208394212427
 20
677.3095977858455
 10
40.9387210040436
 20
678.1347181180371
 10
39.93161085667635
 20
679.2304656276471
 10
39.21056043228009
 20
679.9222467774614
  0
ARC
  5
DA5
330
1F
100
AcDbEntity
  8
SANINDUSA
100
AcDbCircle
 10
14.61571455069156
 20
679.4252983956333
 30
0.0
 40
8.9797885521153
100
AcDbArc
 50
341.4965448679271
 51
3.17241307063404
  0
LINE
  5
DA6
330
1F
100
AcDbEntity
  8
SANINDUSA
100
AcDbLine
 10
41.19868569191453
 20
676.5754561510097
 30
0.0
 11
23.13128861363157
 21
676.5754561510097
 31
0.0
  0
LINE
  5
DA8
330
1F
100
AcDbEntity
  8
SANINDUSA
100
AcDbLine
 10
23.13128861363157
 20
676.5754561510097
 30
0.0
 11
20.02713947635266
 21
676.5754561510097
 31
0.0
  0
ARC
  5
DA9
330
1F
100
AcDbEntity
  8
SANINDUSA
100
AcDbCircle
 10
19.65985446758805
 20
680.2869455674405
 30
0.0
 40
3.729618206460341
100
AcDbArc
 50
217.6806837444026
 51
275.6515285439335
  0
LINE
  5
DAB
330
1F
100
AcDbEntity
  8
SANINDUSA
100
AcDbLine
 10
147.4275290069336
 20
606.4948210762448
 30
0.0
 11
147.3467603102031
 21
605.5206205635361
 31
0.0
  0
LWPOLYLINE
  5
DAC
330
1F
100
AcDbEntity
  8
SANINDUSA
100
AcDbPolyline
 90
       10
 70
   128
 43
0.0
 10
147.3467603102031
 20
605.5206205635361
 10
146.8209374685052
 20
601.7123785212076
 10
145.9119903504752
 20
598.0227723958847
 10
145.0087714687074
 20
595.3274612706922
 10
144.0119604496949
 20
592.8548909582756
 10
142.9038340620432
 20
590.4642134134486
 10
141.884332989156
 20
588.4830745897187
 10
141.1138616628297
 20
587.0871724406251
 10
140.6406419472312
 20
586.264871302947
 10
140.57054215784
 20
586.1451630759428
  0
LWPOLYLINE
  5
DAE
330
1F
100
AcDbEntity
  8
SANINDUSA
100
AcDbPolyline
 90
        9
 70
   128
 43
0.0
 10
39.03014378688112
 20
676.5754561510097
 10
39.48526316880862
 20
676.5485511621137
 10
39.93426005977767
 20
676.4681981346394
 10
40.37109433160503
 20
676.3354780172427
 10
40.78988947367451
 20
676.1521762265662
 10
41.18501164666258
 20
675.9207586289313
 10
41.5511454717307
 20
675.644338368285
 10
41.88336553562999
 20
675.3266339866495
 10
42.17720264979516
 20
674.9719194004544
  0
LINE
  5
DAF
330
1F
100
AcDbEntity
  8
SANINDUSA
100
AcDbLine
 10
209.6086398119937
 20
583.3184111025079
 30
0.0
 11
141.5740343391139
 21
583.3184111025079
 31
0.0
  0
LINE
  5
DC0
330
1F
100
AcDbEntity
  8
SANINDUSA
100
AcDbLine
 10
910.121701815108
 20
677.3329525578631
 30
0.0
 11
910.121701815108
 21
720.4853962925724
 31
0.0
  0
ARC
  5
DC1
330
1F
100
AcDbEntity
  8
SANINDUSA
100
AcDbCircle
 10
923.1217018151083
 20
679.9122297499177
 30
0.0
 40
5.000000000000142
100
AcDbArc
 50
180.0
 51
209.3937115549989
  0
ARC
  5
DC3
330
1F
100
AcDbEntity
  8
SANINDUSA
100
AcDbCircle
 10
1058.63518917352
 20
756.2925364723237
 30
0.0
 40
160.5566021401733
100
AcDbArc
 50
209.4067623490672
 51
265.2063848536901
  0
LINE
  5
DC4
330
1F
100
AcDbEntity
  8
SANINDUSA
100
AcDbLine
 10
1034.617497964411
 20
584.3009586960704
 30
0.0
 11
1034.586132862411
 21
586.0978641862434
 31
0.0
  0
LINE
  5
DC6
330
1F
100
AcDbEntity
  8
SANINDUSA
100
AcDbLine
 10
1105.039194137347
 20
606.4948210762452
 30
0.0
 11
1104.651798828493
 21
584.3009586960704
 31
0.0
  0
ARC
  5
DC9
330
1F
100
AcDbEntity
  8
SANINDUSA
100
AcDbCircle
 10
1045.134648396452
 20
595.3010115852207
 30
0.0
 40
0.9999999999999658
100
AcDbArc
 50
0.0
 51
85.21943564775973
  0
LINE
  5
DCA
330
1F
100
AcDbEntity
  8
SANINDUSA
100
AcDbLine
 10
1093.134648396452
 20
584.3184111025077
 30
0.0
 11
1093.134648396452
 21
610.9868728117328
 31
0.0
  0
LINE
  5
DCC
330
1F
100
AcDbEntity
  8
SANINDUSA
100
AcDbLine
 10
1046.134648396452
 20
595.3010115852207
 30
0.0
 11
1046.134648396452
 21
584.3184111025077
 31
0.0
  0
LINE
  5
DD1
330
1F
100
AcDbEntity
  8
SANINDUSA
100
AcDbLine
 10
1046.134648396452
 20
610.9868728117328
 30
0.0
 11
1046.134648396452
 21
609.3184111025077
 31
0.0
  0
ARC
  5
DD3
330
1F
100
AcDbEntity
  8
SANINDUSA
100
AcDbCircle
 10
1057.96651284244
 20
767.8348703164389
 30
0.0
 40
155.0000000000001
100
AcDbArc
 50
207.1228775321066
 51
209.2826762120046
  0
ARC
  5
DD4
330
1F
100
AcDbEntity
  8
SANINDUSA
100
AcDbCircle
 10
919.1217018151082
 20
696.7144200170729
 30
0.0
 40
1.0
100
AcDbArc
 50
27.12287753211022
 51
180.0
  0
ARC
  5
DD5
330
1F
100
AcDbEntity
  8
SANINDUSA
100
AcDbCircle
 10
2380.30768967438
 20
1651.823934006053
 30
0.0
 40
1745.172942905622
100
AcDbArc
 50
213.3653364501897
 51
214.1603574832361
  0
ARC
  5
DD6
330
1F
100
AcDbEntity
  8
SANINDUSA
100
AcDbCircle
 10
1057.96651284244
 20
767.8348703164389
 30
0.0
 40
155.0
100
AcDbArc
 50
218.2430177214203
 51
258.2024695079332
  0
ARC
  5
DD7
330
1F
100
AcDbEntity
  8
SANINDUSA
100
AcDbCircle
 10
1024.231625703993
 20
606.3202970118721
 30
0.0
 40
10.0
100
AcDbArc
 50
11.52593096814681
 51
78.2024695079333
  0
ARC
  5
DD8
330
1F
100
AcDbEntity
  8
SANINDUSA
100
AcDbCircle
 10
937.0160878378223
 20
672.5091408872738
 30
0.0
 40
1.000000000000004
100
AcDbArc
 50
119.7448812969442
 51
218.2430177214308
  0
ARC
  5
DD9
330
1F
100
AcDbEntity
  8
SANINDUSA
100
AcDbCircle
 10
923.6450639121761
 20
692.5105823524993
 30
0.0
 40
0.9999999999999761
100
AcDbArc
 50
209.2826762120046
 51
299.7448812969442
  0
ARC
  5
DDB
330
1F
100
AcDbEntity
  8
SANINDUSA
100
AcDbCircle
 10
1081.302783950465
 20
767.8348703164389
 30
0.0
 40
145.0
100
AcDbArc
 50
281.3109287909459
 51
342.7655015994968
  0
LINE
  5
DDC
330
1F
100
AcDbEntity
  8
SANINDUSA
100
AcDbLine
 10
1029.527200809149
 20
625.6511668512628
 30
0.0
 11
1109.742095983755
 21
625.6511668512628
 31
0.0
  0
ARC
  5
DDD
330
1F
100
AcDbEntity
  8
SANINDUSA
100
AcDbCircle
 10
1057.96651284244
 20
767.8348703164389
 30
0.0
 40
145.0
100
AcDbArc
 50
218.7124064994368
 51
258.6890712090507
  0
ARC
  5
DDE
330
1F
100
AcDbEntity
  8
SANINDUSA
100
AcDbCircle
 10
2223.592594649409
 20
1553.612059219597
 30
0.0
 40
1550.301651059257
100
AcDbArc
 50
213.5432084525648
 51
214.4265473574697
  0
ARC
  5
DDF
330
1F
100
AcDbEntity
  8
SANINDUSA
100
AcDbCircle
 10
1057.96651284244
 20
767.8348703164389
 30
0.0
 40
145.0000000000001
100
AcDbArc
 50
197.2344984005032
 51
209.2573493105994
  0
ARC
  5
DE1
330
1F
100
AcDbEntity
  8
SANINDUSA
100
AcDbCircle
 10
930.5912474492261
 20
696.4798300879565
 30
0.0
 40
0.9999999999999483
100
AcDbArc
 50
299.744881296933
 51
29.25734931059948
  0
ARC
  5
DE2
330
1F
100
AcDbEntity
  8
SANINDUSA
100
AcDbCircle
 10
944.0434424650204
 20
676.5247721028156
 30
0.0
 40
1.000000000000035
100
AcDbArc
 50
38.71240649943295
 51
119.7448812969405
  0
LINE
  5
DE4
330
1F
100
AcDbEntity
  8
SANINDUSA
100
AcDbLine
 10
931.0873863875826
 20
695.6115869458321
 30
0.0
 11
924.1412028505326
 21
691.642339210375
 31
0.0
  0
LINE
  5
DE5
330
1F
100
AcDbEntity
  8
SANINDUSA
100
AcDbLine
 10
936.5199488994653
 20
673.3773840293983
 30
0.0
 11
943.5473035266634
 21
677.3930152449399
 31
0.0
  0
ARC
  5
DE6
330
1F
100
AcDbEntity
  8
SANINDUSA
100
AcDbCircle
 10
1236.134648396452
 20
722.3184111025079
 30
0.0
 40
10.99999999999994
100
AcDbArc
 50
0.0
 51
90.0
  0
ARC
  5
DE7
330
1F
100
AcDbEntity
  8
SANINDUSA
100
AcDbCircle
 10
903.134648396452
 20
722.3184111025079
 30
0.0
 40
11.00000000000008
100
AcDbArc
 50
89.99999999999674
 51
180.0
  0
LINE
  5
DE8
330
1F
100
AcDbEntity
  8
SANINDUSA
100
AcDbLine
 10
1247.134648396452
 20
722.3184111025077
 30
0.0
 11
1247.134648396452
 21
721.3184111025078
 31
0.0
  0
LINE
  5
DE9
330
1F
100
AcDbEntity
  8
SANINDUSA
100
AcDbLine
 10
892.1346483964521
 20
721.3184111025078
 30
0.0
 11
892.1346483964521
 21
722.3184111025077
 31
0.0
  0
ARC
  5
DEA
330
1F
100
AcDbEntity
  8
SANINDUSA
100
AcDbCircle
 10
906.1217018151085
 20
720.4853962925724
 30
0.0
 40
4.000000000000213
100
AcDbArc
 50
0.0
 51
31.87303413318808
  0
ARC
  5
DEB
330
1F
100
AcDbEntity
  8
SANINDUSA
100
AcDbCircle
 10
904.6228223379353
 20
719.5534044510111
 30
0.0
 40
5.765006651496786
100
AcDbArc
 50
31.87303413318808
 51
162.1721153773219
  0
LINE
  5
DEC
330
1F
100
AcDbEntity
  8
SANINDUSA
100
AcDbLine
 10
903.1346483964524
 20
733.3184111025079
 30
0.0
 11
908.0157908628549
 21
733.3184111025079
 31
0.0
  0
ARC
  5
DED
330
1F
100
AcDbEntity
  8
SANINDUSA
100
AcDbCircle
 10
908.0157908628549
 20
721.3184111025078
 30
0.0
 40
12.00000000000003
100
AcDbArc
 50
17.23449840050324
 51
90.0
  0
ARC
  5
DEE
330
1F
100
AcDbEntity
  8
SANINDUSA
100
AcDbCircle
 10
1045.134648396452
 20
584.3184111025077
 30
0.0
 40
0.9999999999999786
100
AcDbArc
 50
270.0
 51
0.0
  0
LINE
  5
DEF
330
1F
100
AcDbEntity
  8
SANINDUSA
100
AcDbLine
 10
1045.134648396452
 20
583.3184111025079
 30
0.0
 11
1035.617345659568
 21
583.3184111025079
 31
0.0
  0
ARC
  5
DF0
330
1F
100
AcDbEntity
  8
SANINDUSA
100
AcDbCircle
 10
1035.617345659568
 20
584.3184111025077
 30
0.0
 40
1.000000000000043
100
AcDbArc
 50
181.0000000000082
 51
270.0
  0
LINE
  5
DF1
330
1F
100
AcDbEntity
  8
SANINDUSA
100
AcDbLine
 10
899.1346483964523
 20
721.3184111025078
 30
0.0
 11
892.1346483964521
 21
721.3184111025078
 31
0.0
  0
ARC
  5
DF2
330
1F
100
AcDbEntity
  8
SANINDUSA
100
AcDbCircle
 10
1058.592991642465
 20
756.2267904716807
 30
0.0
 40
168.4875639581616
100
AcDbArc
 50
208.4724248210712
 51
260.6557008854604
  0
LINE
  5
DF3
330
1F
100
AcDbEntity
  8
SANINDUSA
100
AcDbLine
 10
918.1217018151082
 20
679.9122297499179
 30
0.0
 11
918.1217018151082
 21
696.7144200170729
 31
0.0
  0
ARC
  5
DF4
330
1F
100
AcDbEntity
  8
SANINDUSA
100
AcDbCircle
 10
1030.586742081785
 20
586.0280545604943
 30
0.0
 40
4.000000000000023
100
AcDbArc
 50
0.999999999998522
 51
80.65570088546044
  0
ARC
  5
DF5
330
1F
100
AcDbEntity
  8
SANINDUSA
100
AcDbCircle
 10
913.1217018151083
 20
677.3329525578631
 30
0.0
 40
3.000000000000014
100
AcDbArc
 50
180.0
 51
208.4724248210746
  0
ARC
  5
DF6
330
1F
100
AcDbEntity
  8
SANINDUSA
100
AcDbCircle
 10
1234.646474454969
 20
719.5534044510111
 30
0.0
 40
5.765006651496604
100
AcDbArc
 50
17.8278846226826
 51
162.5229819811076
  0
LINE
  5
DF7
330
1F
100
AcDbEntity
  8
SANINDUSA
100
AcDbLine
 10
899.1346483964523
 20
721.3184111025078
 30
0.0
 11
910.0340011807537
 21
721.3184111025078
 31
0.0
  0
LINE
  5
DF8
330
1F
100
AcDbEntity
  8
SANINDUSA
100
AcDbLine
 10
1229.158300513486
 20
721.3184111025078
 30
0.0
 11
1240.134648396452
 21
721.3184111025078
 31
0.0
  0
ARC
  5
DF9
330
1F
100
AcDbEntity
  8
SANINDUSA
100
AcDbCircle
 10
1231.253505930049
 20
721.3184111025078
 30
0.0
 40
12.00000000000015
100
AcDbArc
 50
90.0
 51
162.7655015994967
  0
LINE
  5
DFA
330
1F
100
AcDbEntity
  8
SANINDUSA
100
AcDbLine
 10
908.0157908628549
 20
733.3184111025079
 30
0.0
 11
1231.253505930049
 21
733.3184111025079
 31
0.0
  0
ARC
  5
DFB
330
1F
100
AcDbEntity
  8
SANINDUSA
100
AcDbCircle
 10
1081.302783950465
 20
767.8348703164389
 30
0.0
 40
155.0
100
AcDbArc
 50
281.7975304920667
 51
342.5229819811077
  0
ARC
  5
DFC
330
1F
100
AcDbEntity
  8
SANINDUSA
100
AcDbCircle
 10
1027.565868944784
 20
615.8453941984919
 30
0.0
 40
9.999999999999969
100
AcDbArc
 50
50.00000000000021
 51
78.68907120905072
  0
LINE
  5
DFD
330
1F
100
AcDbEntity
  8
SANINDUSA
100
AcDbLine
 10
1033.99374504165
 20
623.5058386296816
 30
0.0
 11
1044.348586444885
 21
614.8170950273277
 31
0.0
  0
ARC
  5
DFE
330
1F
100
AcDbEntity
  8
SANINDUSA
100
AcDbCircle
 10
1041.134648396452
 20
610.9868728117328
 30
0.0
 40
5.0
100
AcDbArc
 50
0.0
 51
50.00000000000021
  0
ARC
  5
DFF
330
1F
100
AcDbEntity
  8
SANINDUSA
100
AcDbCircle
 10
1045.134648396452
 20
609.3184111025077
 30
0.0
 40
0.9999999999999786
100
AcDbArc
 50
270.0
 51
0.0
  0
LINE
  5
E00
330
1F
100
AcDbEntity
  8
SANINDUSA
100
AcDbLine
 10
1034.029969445708
 20
608.3184111025077
 30
0.0
 11
1045.134648396452
 21
608.3184111025079
 31
0.0
  0
ARC
  5
E01
330
1F
100
AcDbEntity
  8
SANINDUSA
100
AcDbCircle
 10
1111.70342784812
 20
615.8453941984919
 30
0.0
 40
10.00000000000007
100
AcDbArc
 50
101.3109287909492
 51
129.9999999999998
  0
ARC
  5
E03
330
1F
100
AcDbEntity
  8
SANINDUSA
100
AcDbCircle
 10
1115.03767108891
 20
606.3202970118718
 30
0.0
 40
9.999999999999998
100
AcDbArc
 50
101.7975304920667
 51
178.9999999999949
  0
LINE
  5
E04
330
1F
100
AcDbEntity
  8
SANINDUSA
100
AcDbLine
 10
1094.920710348019
 20
614.8170950273277
 30
0.0
 11
1105.275551751254
 21
623.5058386296816
 31
0.0
  0
ARC
  5
E06
330
1F
100
AcDbEntity
  8
SANINDUSA
100
AcDbCircle
 10
1103.651951133336
 20
584.3184111025077
 30
0.0
 40
0.9999999999999786
100
AcDbArc
 50
270.0
 51
358.9999999997409
  0
ARC
  5
E07
330
1F
100
AcDbEntity
  8
SANINDUSA
100
AcDbCircle
 10
1098.134648396452
 20
610.9868728117328
 30
0.0
 40
5.000000000000084
100
AcDbArc
 50
129.9999999999998
 51
180.0
  0
ARC
  5
E0B
330
1F
100
AcDbEntity
  8
SANINDUSA
100
AcDbCircle
 10
1094.134648396452
 20
584.3184111025077
 30
0.0
 40
0.9999999999999786
100
AcDbArc
 50
180.0
 51
270.0
  0
LINE
  5
E0C
330
1F
100
AcDbEntity
  8
SANINDUSA
100
AcDbLine
 10
1094.134648396452
 20
583.3184111025079
 30
0.0
 11
1045.134648396452
 21
583.3184111025079
 31
0.0
  0
LINE
  5
E0D
330
1F
100
AcDbEntity
  8
SANINDUSA
100
AcDbLine
 10
1103.651951133336
 20
583.3184111025079
 30
0.0
 11
1094.134648396452
 21
583.3184111025079
 31
0.0
  0
LINE
  5
E0E
330
1F
100
AcDbEntity
  8
SANINDUSA
100
AcDbLine
 10
1231.253505930049
 20
733.3184111025079
 30
0.0
 11
1236.134648396452
 21
733.3184111025079
 31
0.0
  0
LINE
  5
E0F
330
1F
100
AcDbEntity
  8
SANINDUSA
100
AcDbLine
 10
1247.134648396452
 20
721.3184111025078
 30
0.0
 11
1240.134648396452
 21
721.3184111025078
 31
0.0
  0
ENDSEC
  0
SECTION
  2
OBJECTS
  0
DICTIONARY
  5
C
330
0
100
AcDbDictionary
281
     1
  3
ACAD_COLOR
350
BA9
  3
ACAD_GROUP
350
D
  3
ACAD_LAYOUT
350
1A
  3
ACAD_MATERIAL
350
BA8
  3
ACAD_MLINESTYLE
350
17
  3
ACAD_PLOTSETTINGS
350
19
  3
ACAD_PLOTSTYLENAME
350
E
  3
ACAD_TABLESTYLE
350
BAA
  3
ACDBHEADERROUNDTRIPXREC
350
FDA
  3
AcDbVariableDictionary
350
3D
  3
ASE_INDEX_DICTIONARY
350
B91
  0
DICTIONARY
  5
BA9
102
{ACAD_REACTORS
330
C
102
}
330
C
100
AcDbDictionary
281
     1
  0
DICTIONARY
  5
D
102
{ACAD_REACTORS
330
C
102
}
330
C
100
AcDbDictionary
281
     1
  0
DICTIONARY
  5
1A
102
{ACAD_REACTORS
330
C
102
}
330
C
100
AcDbDictionary
281
     1
  3
Layout1
350
1E
  3
Layout2
350
26
  3
Model
350
22
  0
DICTIONARY
  5
BA8
102
{ACAD_REACTORS
330
C
102
}
330
C
100
AcDbDictionary
281
     1
  0
DICTIONARY
  5
17
102
{ACAD_REACTORS
330
C
102
}
330
C
100
AcDbDictionary
281
     1
  3
Standard
350
18
  0
DICTIONARY
  5
19
102
{ACAD_REACTORS
330
C
102
}
330
C
100
AcDbDictionary
281
     1
  0
ACDBDICTIONARYWDFLT
  5
E
102
{ACAD_REACTORS
330
C
102
}
330
C
100
AcDbDictionary
281
     1
  3
Normal
350
F
100
AcDbDictionaryWithDefault
340
F
  0
DICTIONARY
  5
BAA
102
{ACAD_REACTORS
330
C
102
}
330
C
100
AcDbDictionary
281
     1
  3
Standard
350
BAB
  0
DICTIONARY
  5
FDA
102
{ACAD_REACTORS
330
C
102
}
330
C
100
AcDbDictionary
281
     1
  0
DICTIONARY
  5
3D
102
{ACAD_REACTORS
330
C
102
}
330
C
100
AcDbDictionary
281
     1
  3
CTABLESTYLE
350
F0F
  3
DIMASSOC
350
3F
  3
HIDETEXT
350
3E
  3
PROJECTNAME
350
FD3
  0
DICTIONARY
  5
B91
102
{ACAD_REACTORS
330
C
102
}
330
C
100
AcDbDictionary
281
     1
  3
ASEBlockHierarchyIndexRecord
350
B92
1001
DCO15
1040
1485069952.593
  0
LAYOUT
  5
1E
102
{ACAD_XDICTIONARY
360
FDB
102
}
102
{ACAD_REACTORS
330
1A
102
}
330
1A
100
AcDbPlotSettings
  1

  2
Ploter HP500
  4

  6

 40
0.0
 41
0.0
 42
0.0
 43
0.0
 44
0.0
 45
0.0
 46
0.0
 47
0.0
 48
0.0
 49
0.0
140
0.0
141
0.0
142
1.0
143
1.0
 70
   688
 72
     0
 73
     0
 74
     5
  7
monochrome.ctb
 75
    16
147
1.0
148
0.0
149
0.0
100
AcDbLayout
  1
Layout1
 70
     1
 71
     1
 10
0.0
 20
0.0
 11
420.0
 21
297.0
 12
0.0
 22
0.0
 32
0.0
 14
1.000000000000000E+20
 24
1.000000000000000E+20
 34
1.000000000000000E+20
 15
-1.000000000000000E+20
 25
-1.000000000000000E+20
 35
-1.000000000000000E+20
146
0.0
 13
0.0
 23
0.0
 33
0.0
 16
1.0
 26
0.0
 36
0.0
 17
0.0
 27
1.0
 37
0.0
 76
     0
330
1B
  0
LAYOUT
  5
26
102
{ACAD_XDICTIONARY
360
FDF
102
}
102
{ACAD_REACTORS
330
1A
102
}
330
1A
100
AcDbPlotSettings
  1

  2
Ploter HP500
  4

  6

 40
0.0
 41
0.0
 42
0.0
 43
0.0
 44
0.0
 45
0.0
 46
0.0
 47
0.0
 48
0.0
 49
0.0
140
0.0
141
0.0
142
1.0
143
1.0
 70
   688
 72
     0
 73
     0
 74
     5
  7
monochrome.ctb
 75
    16
147
1.0
148
0.0
149
0.0
100
AcDbLayout
  1
Layout2
 70
     1
 71
     2
 10
0.0
 20
0.0
 11
12.0
 21
9.0
 12
0.0
 22
0.0
 32
0.0
 14
0.0
 24
0.0
 34
0.0
 15
0.0
 25
0.0
 35
0.0
146
0.0
 13
0.0
 23
0.0
 33
0.0
 16
1.0
 26
0.0
 36
0.0
 17
0.0
 27
1.0
 37
0.0
 76
     0
330
23
  0
LAYOUT
  5
22
102
{ACAD_XDICTIONARY
360
FDD
102
}
102
{ACAD_REACTORS
330
1A
102
}
330
1A
100
AcDbPlotSettings
  1

  2
Ploter HP500
  4
User268
  6

 40
4.995333194732666
 41
16.97565841674804
 42
4.995330810546875
 43
16.97567749023437
 44
209.9733276367187
 45
296.9259948730469
 46
0.0
 47
0.0
 48
0.0
 49
0.0
140
0.0
141
0.0
142
1.0
143
1.0
 70
 11952
 72
     1
 73
     1
 74
     0
  7

 75
     0
147
1.0
148
-427.5957866592534
149
7.362384574453926
100
AcDbLayout
  1
Model
 70
     1
 71
     0
 10
0.0
 20
0.0
 11
12.0
 21
9.0
 12
0.0
 22
0.0
 32
0.0
 14
0.0
 24
0.0
 34
0.0
 15
0.0
 25
0.0
 35
0.0
146
0.0
 13
0.0
 23
0.0
 33
0.0
 16
1.0
 26
0.0
 36
0.0
 17
0.0
 27
1.0
 37
0.0
 76
     0
330
1F
  0
MLINESTYLE
  5
18
102
{ACAD_REACTORS
330
17
102
}
330
17
100
AcDbMlineStyle
  2
STANDARD
 70
     0
  3

 62
   256
 51
90.0
 52
90.0
 71
     2
 49
0.5
 62
   256
  6
BYLAYER
 49
-0.5
 62
   256
  6
BYLAYER
  0
ACDBPLACEHOLDER
  5
F
102
{ACAD_REACTORS
330
E
102
}
330
E
  0
TABLESTYLE
  5
BAB
102
{ACAD_REACTORS
330
BAA
102
}
330
BAA
100
AcDbTableStyle
  3
Standard
 70
     0
 71
     0
 40
1.5
 41
1.5
280
     0
281
     0
  7
Standard
140
4.5
170
     2
 62
     0
 63
     7
283
     0
274
    -2
284
     1
 64
     0
275
    -2
285
     1
 65
     0
276
    -2
286
     1
 66
     0
277
    -2
287
     1
 67
     0
278
    -2
288
     1
 68
     0
279
    -2
289
     1
 69
     0
  7
Standard
140
6.0
170
     5
 62
     0
 63
     7
283
     0
274
    -2
284
     1
 64
     0
275
    -2
285
     1
 65
     0
276
    -2
286
     1
 66
     0
277
    -2
287
     1
 67
     0
278
    -2
288
     1
 68
     0
279
    -2
289
     1
 69
     0
  7
Standard
140
4.5
170
     5
 62
     0
 63
     7
283
     0
274
    -2
284
     1
 64
     0
275
    -2
285
     1
 65
     0
276
    -2
286
     1
 66
     0
277
    -2
287
     1
 67
     0
278
    -2
288
     1
 68
     0
279
    -2
289
     1
 69
     0
  0
DICTIONARYVAR
  5
F0F
102
{ACAD_REACTORS
330
3D
102
}
330
3D
100
DictionaryVariables
280
     0
  1
STANDARD
  0
DICTIONARYVAR
  5
3F
102
{ACAD_REACTORS
330
3D
102
}
330
3D
100
DictionaryVariables
280
     0
  1
2
  0
DICTIONARYVAR
  5
3E
102
{ACAD_REACTORS
330
3D
102
}
330
3D
100
DictionaryVariables
280
     0
  1
1
  0
DICTIONARYVAR
  5
FD3
102
{ACAD_REACTORS
330
3D
102
}
330
3D
100
DictionaryVariables
280
     0
  1

  0
XRECORD
  5
B92
102
{ACAD_REACTORS
330
B91
102
}
330
B91
100
AcDbXrecord
280
     1
  0
DICTIONARY
  5
FDB
330
1E
100
AcDbDictionary
280
     1
281
     1
  3
ACAD_XREC_ROUNDTRIP
360
FDC
  0
DICTIONARY
  5
FDF
330
26
100
AcDbDictionary
280
     1
281
     1
  3
ACAD_XREC_ROUNDTRIP
360
FE0
  0
DICTIONARY
  5
FDD
330
22
100
AcDbDictionary
280
     1
281
     1
  3
ACAD_XREC_ROUNDTRIP
360
FDE
  0
XRECORD
  5
FDC
102
{ACAD_REACTORS
330
FDB
102
}
330
FDB
100
AcDbXrecord
280
     1
102
SHADEPLOT
 70
     0
102
SHADEPLOTRESLEVEL
 70
     2
102
SHADEPLOTCUSTOMDPI
 70
   300
  0
XRECORD
  5
FE0
102
{ACAD_REACTORS
330
FDF
102
}
330
FDF
100
AcDbXrecord
280
     1
102
SHADEPLOT
 70
     0
102
SHADEPLOTRESLEVEL
 70
     2
102
SHADEPLOTCUSTOMDPI
 70
   300
  0
XRECORD
  5
FDE
102
{ACAD_REACTORS
330
FDD
102
}
330
FDD
100
AcDbXrecord
280
     1
102
SHADEPLOT
 70
     0
102
SHADEPLOTRESLEVEL
 70
     2
102
SHADEPLOTCUSTOMDPI
 70
   300
  0
ENDSEC
  0
EOF
